  0
SECTION
  2
HEADER
  9
$ACADVER
  1
AC1015
  9
$ACADMAINTVER
 70
     6
  9
$DWGCODEPAGE
  3
ANSI_1254
  9
$INSBASE
 10
0.0
 20
0.0
 30
0.0
  9
$EXTMIN
 10
0.0
 20
0.0
 30
0.0
  9
$EXTMAX
 10
279.4
 20
215.9
 30
0.0
  9
$LIMMIN
 10
0.0
 20
0.0
  9
$LIMMAX
 10
279.4
 20
215.9
  9
$ORTHOMODE
 70
     0
  9
$REGENMODE
 70
     1
  9
$FILLMODE
 70
     1
  9
$QTEXTMODE
 70
     0
  9
$MIRRTEXT
 70
     1
  9
$LTSCALE
 40
1.0
  9
$ATTMODE
 70
     1
  9
$TEXTSIZE
 40
3.5
  9
$TRACEWID
 40
1.0
  9
$TEXTSTYLE
  7
Standard
  9
$CLAYER
  8
0
  9
$CELTYPE
  6
ByLayer
  9
$CECOLOR
 62
   256
  9
$CELTSCALE
 40
1.0
  9
$DISPSILH
 70
     0
  9
$DIMSCALE
 40
1.0
  9
$DIMASZ
 40
3.5
  9
$DIMEXO
 40
1.0
  9
$DIMDLI
 40
3.75
  9
$DIMRND
 40
0.0
  9
$DIMDLE
 40
0.0
  9
$DIMEXE
 40
1.0
  9
$DIMTP
 40
0.0
  9
$DIMTM
 40
0.0
  9
$DIMTXT
 40
3.5
  9
$DIMCEN
 40
2.5
  9
$DIMTSZ
 40
0.0
  9
$DIMTOL
 70
     0
  9
$DIMLIM
 70
     0
  9
$DIMTIH
 70
     1
  9
$DIMTOH
 70
     1
  9
$DIMSE1
 70
     0
  9
$DIMSE2
 70
     0
  9
$DIMTAD
 70
     1
  9
$DIMZIN
 70
     0
  9
$DIMBLK
  1

  9
$DIMASO
 70
     1
  9
$DIMSHO
 70
     1
  9
$DIMPOST
  1

  9
$DIMAPOST
  1

  9
$DIMALT
 70
     0
  9
$DIMALTD
 70
     3
  9
$DIMALTF
 40
0.0393700787
  9
$DIMLFAC
 40
1.0
  9
$DIMTOFL
 70
     1
  9
$DIMTVP
 40
0.0
  9
$DIMTIX
 70
     0
  9
$DIMSOXD
 70
     0
  9
$DIMSAH
 70
     0
  9
$DIMBLK1
  1

  9
$DIMBLK2
  1

  9
$DIMSTYLE
  2
ISO-25
  9
$DIMCLRD
 70
     0
  9
$DIMCLRE
 70
     0
  9
$DIMCLRT
 70
     0
  9
$DIMTFAC
 40
1.0
  9
$DIMGAP
 40
1.524
  9
$DIMJUST
 70
     0
  9
$DIMSD1
 70
     0
  9
$DIMSD2
 70
     0
  9
$DIMTOLJ
 70
     0
  9
$DIMTZIN
 70
     0
  9
$DIMALTZ
 70
     0
  9
$DIMALTTZ
 70
     0
  9
$DIMUPT
 70
     0
  9
$DIMDEC
 70
     2
  9
$DIMTDEC
 70
     2
  9
$DIMALTU
 70
     2
  9
$DIMALTTD
 70
     3
  9
$DIMTXSTY
  7
Standard
  9
$DIMAUNIT
 70
     0
  9
$DIMADEC
 70
     2
  9
$DIMALTRND
 40
0.0
  9
$DIMAZIN
 70
     0
  9
$DIMDSEP
 70
    44
  9
$DIMATFIT
 70
     3
  9
$DIMFRAC
 70
     0
  9
$DIMLDRBLK
  1

  9
$DIMLUNIT
 70
     2
  9
$DIMLWD
 70
    -2
  9
$DIMLWE
 70
    -2
  9
$DIMTMOVE
 70
     0
  9
$LUNITS
 70
     2
  9
$LUPREC
 70
     2
  9
$SKETCHINC
 40
1.0
  9
$FILLETRAD
 40
10.0
  9
$AUNITS
 70
     0
  9
$AUPREC
 70
     2
  9
$MENU
  1
.
  9
$ELEVATION
 40
0.0
  9
$PELEVATION
 40
0.0
  9
$THICKNESS
 40
0.0
  9
$LIMCHECK
 70
     0
  9
$CHAMFERA
 40
0.0
  9
$CHAMFERB
 40
0.0
  9
$CHAMFERC
 40
0.0
  9
$CHAMFERD
 40
0.0
  9
$SKPOLY
 70
     0
  9
$TDCREATE
 40
2458985.682632731
  9
$TDUCREATE
 40
2458985.557632731
  9
$TDUPDATE
 40
2458985.682633044
  9
$TDUUPDATE
 40
2458985.557633044
  9
$TDINDWG
 40
0.0000000116
  9
$TDUSRTIMER
 40
0.0000000116
  9
$USRTIMER
 70
     1
  9
$ANGBASE
 50
0.0
  9
$ANGDIR
 70
     0
  9
$PDMODE
 70
     0
  9
$PDSIZE
 40
-1.0
  9
$PLINEWID
 40
0.0
  9
$SPLFRAME
 70
     0
  9
$SPLINETYPE
 70
     6
  9
$SPLINESEGS
 70
     8
  9
$HANDSEED
  5
CB
  9
$SURFTAB1
 70
     6
  9
$SURFTAB2
 70
     6
  9
$SURFTYPE
 70
     6
  9
$SURFU
 70
     6
  9
$SURFV
 70
     6
  9
$UCSBASE
  2

  9
$UCSNAME
  2

  9
$UCSORG
 10
0.0
 20
0.0
 30
0.0
  9
$UCSXDIR
 10
1.0
 20
0.0
 30
0.0
  9
$UCSYDIR
 10
0.0
 20
1.0
 30
0.0
  9
$UCSORTHOREF
  2

  9
$UCSORTHOVIEW
 70
     0
  9
$UCSORGTOP
 10
0.0
 20
0.0
 30
0.0
  9
$UCSORGBOTTOM
 10
0.0
 20
0.0
 30
0.0
  9
$UCSORGLEFT
 10
0.0
 20
0.0
 30
0.0
  9
$UCSORGRIGHT
 10
0.0
 20
0.0
 30
0.0
  9
$UCSORGFRONT
 10
0.0
 20
0.0
 30
0.0
  9
$UCSORGBACK
 10
0.0
 20
0.0
 30
0.0
  9
$PUCSBASE
  2

  9
$PUCSNAME
  2

  9
$PUCSORG
 10
0.0
 20
0.0
 30
0.0
  9
$PUCSXDIR
 10
1.0
 20
0.0
 30
0.0
  9
$PUCSYDIR
 10
0.0
 20
1.0
 30
0.0
  9
$PUCSORTHOREF
  2

  9
$PUCSORTHOVIEW
 70
     0
  9
$PUCSORGTOP
 10
0.0
 20
0.0
 30
0.0
  9
$PUCSORGBOTTOM
 10
0.0
 20
0.0
 30
0.0
  9
$PUCSORGLEFT
 10
0.0
 20
0.0
 30
0.0
  9
$PUCSORGRIGHT
 10
0.0
 20
0.0
 30
0.0
  9
$PUCSORGFRONT
 10
0.0
 20
0.0
 30
0.0
  9
$PUCSORGBACK
 10
0.0
 20
0.0
 30
0.0
  9
$USERI1
 70
     0
  9
$USERI2
 70
     0
  9
$USERI3
 70
     0
  9
$USERI4
 70
     0
  9
$USERI5
 70
     0
  9
$USERR1
 40
0.0
  9
$USERR2
 40
0.0
  9
$USERR3
 40
0.0
  9
$USERR4
 40
0.0
  9
$USERR5
 40
0.0
  9
$WORLDVIEW
 70
     1
  9
$SHADEDGE
 70
     3
  9
$SHADEDIF
 70
    70
  9
$TILEMODE
 70
     1
  9
$MAXACTVP
 70
    64
  9
$PINSBASE
 10
0.0
 20
0.0
 30
0.0
  9
$PLIMCHECK
 70
     0
  9
$PEXTMIN
 10
1.0000000000E+20
 20
1.0000000000E+20
 30
1.0000000000E+20
  9
$PEXTMAX
 10
-1.0000000000E+20
 20
-1.0000000000E+20
 30
-1.0000000000E+20
  9
$PLIMMIN
 10
0.0
 20
0.0
  9
$PLIMMAX
 10
420.0
 20
297.0
  9
$UNITMODE
 70
     0
  9
$VISRETAIN
 70
     1
  9
$PLINEGEN
 70
     0
  9
$PSLTSCALE
 70
     1
  9
$TREEDEPTH
 70
  3020
  9
$CMLSTYLE
  2
Standard
  9
$CMLJUST
 70
     0
  9
$CMLSCALE
 40
20.0
  9
$PROXYGRAPHICS
 70
     1
  9
$MEASUREMENT
 70
     1
  9
$CELWEIGHT
370
    -1
  9
$ENDCAPS
280
     0
  9
$JOINSTYLE
280
     0
  9
$LWDISPLAY
290
     1
  9
$INSUNITS
 70
     4
  9
$HYPERLINKBASE
  1

  9
$STYLESHEET
  1

  9
$XEDIT
290
     1
  9
$CEPSNTYPE
380
     0
  9
$PSTYLEMODE
290
     1
  9
$FINGERPRINTGUID
  2
{d99464a8-ffad-455e-a2ad-d62f1bf4e00f}
  9
$VERSIONGUID
  2
{FAEB1C32-E019-11D5-929B-00C0DF256EC4}
  9
$EXTNAMES
290
     1
  9
$PSVPSCALE
 40
0.0
  9
$OLESTARTUP
290
     0
  0
ENDSEC
  0
SECTION
  2
CLASSES
  0
CLASS
  1
ACDBDICTIONARYWDFLT
  2
AcDbDictionaryWithDefault
  3
ObjectDBX Classes
 90
        0
280
     0
281
     0
  0
CLASS
  1
VISUALSTYLE
  2
AcDbVisualStyle
  3
ObjectDBX Classes
 90
     4095
280
     0
281
     0
  0
CLASS
  1
MATERIAL
  2
AcDbMaterial
  3
ObjectDBX Classes
 90
     1153
280
     0
281
     0
  0
CLASS
  1
SCALE
  2
AcDbScale
  3
ObjectDBX Classes
 90
     1153
280
     0
281
     0
  0
CLASS
  1
TABLESTYLE
  2
AcDbTableStyle
  3
ObjectDBX Classes
 90
     4095
280
     0
281
     0
  0
CLASS
  1
MLEADERSTYLE
  2
AcDbMLeaderStyle
  3
ACDB_MLEADERSTYLE_CLASS
 90
     4095
280
     0
281
     0
  0
CLASS
  1
SUN
  2
AcDbSun
  3
SCENEOE
 90
     1153
280
     0
281
     0
  0
CLASS
  1
ACDBPLACEHOLDER
  2
AcDbPlaceHolder
  3
ObjectDBX Classes
 90
        0
280
     0
281
     0
  0
CLASS
  1
LAYOUT
  2
AcDbLayout
  3
ObjectDBX Classes
 90
        0
280
     0
281
     0
  0
ENDSEC
  0
SECTION
  2
TABLES
  0
TABLE
  2
VPORT
  5
8
330
0
100
AcDbSymbolTable
 70
     1
  0
VPORT
  5
29
330
8
100
AcDbSymbolTableRecord
100
AcDbViewportTableRecord
  2
*Active
 70
     0
 10
0.0
 20
0.0
 11
1.0
 21
1.0
 12
139.7
 22
107.95
 13
0.0
 23
0.0
 14
10.0
 24
10.0
 15
10.0
 25
10.0
 16
0.0
 26
0.0
 36
1.0
 17
0.0
 27
0.0
 37
0.0
 40
215.9
 41
1.2941176471
 42
50.0
 43
0.0
 44
0.0
 50
0.0
 51
0.0
 71
     0
 72
  2000
 73
     1
 74
     3
 75
     0
 76
     0
 77
     0
 78
     0
281
     0
 65
     1
110
0.0
120
0.0
130
0.0
111
1.0
121
0.0
131
0.0
112
0.0
122
1.0
132
0.0
 79
     0
146
0.0
  0
ENDTAB
  0
TABLE
  2
LTYPE
  5
5
330
0
100
AcDbSymbolTable
 70
     6
  0
LTYPE
  5
14
330
5
100
AcDbSymbolTableRecord
100
AcDbLinetypeTableRecord
  2
ByBlock
 70
     0
  3

 72
    65
 73
     0
 40
0.0
  0
LTYPE
  5
15
330
5
100
AcDbSymbolTableRecord
100
AcDbLinetypeTableRecord
  2
ByLayer
 70
     0
  3

 72
    65
 73
     0
 40
0.0
  0
LTYPE
  5
16
330
5
100
AcDbSymbolTableRecord
100
AcDbLinetypeTableRecord
  2
Continuous
 70
     0
  3
Solid line
 72
    65
 73
     0
 40
0.0
  0
LTYPE
  5
6E
330
5
100
AcDbSymbolTableRecord
100
AcDbLinetypeTableRecord
  2
HIDDEN
 70
     0
  3
Hidden __ __ __ __ __ __ __ __ __ __ __ __ __ __
 72
    65
 73
     2
 40
1.905
 49
1.27
 74
     0
 49
-0.635
 74
     0
  0
LTYPE
  5
6F
330
5
100
AcDbSymbolTableRecord
100
AcDbLinetypeTableRecord
  2
PHANTOM
 70
     0
  3
Phantom ______  __  __  ______  __  __  ______
 72
    65
 73
     6
 40
12.7
 49
6.35
 74
     0
 49
-1.27
 74
     0
 49
1.27
 74
     0
 49
-1.27
 74
     0
 49
1.27
 74
     0
 49
-1.27
 74
     0
  0
LTYPE
  5
70
330
5
100
AcDbSymbolTableRecord
100
AcDbLinetypeTableRecord
  2
CENTER
 70
     0
  3
Center ____ _ ____ _ ____ _ ____ _ ____ _ ____
 72
    65
 73
     4
 40
10.16
 49
6.35
 74
     0
 49
-1.27
 74
     0
 49
1.27
 74
     0
 49
-1.27
 74
     0
  0
LTYPE
  5
71
330
5
100
AcDbSymbolTableRecord
100
AcDbLinetypeTableRecord
  2
CENTERX2
 70
     0
  3
Center (2x) ________  __  ________  __  _____
 72
    65
 73
     4
 40
20.32
 49
12.7
 74
     0
 49
-2.54
 74
     0
 49
2.54
 74
     0
 49
-2.54
 74
     0
  0
LTYPE
  5
72
330
5
100
AcDbSymbolTableRecord
100
AcDbLinetypeTableRecord
  2
DOT2
 70
     0
  3
Dot (.5x) ........................................
 72
    65
 73
     2
 40
0.635
 49
0.0
 74
     0
 49
-0.635
 74
     0
  0
ENDTAB
  0
TABLE
  2
LAYER
  5
2
330
0
100
AcDbSymbolTable
 70
    17
  0
LAYER
  5
10
330
2
100
AcDbSymbolTableRecord
100
AcDbLayerTableRecord
  2
0
 70
     0
 62
     7
  6
Continuous
370
    -3
390
F
  0
LAYER
  5
73
330
2
100
AcDbSymbolTableRecord
100
AcDbLayerTableRecord
  2
FORMAT
 70
     0
 62
     7
  6
Continuous
370
    -3
390
F
  0
LAYER
  5
74
330
2
100
AcDbSymbolTableRecord
100
AcDbLayerTableRecord
  2
YARDIMCI_GEOMETRI
 70
     0
 62
    -6
  6
Continuous
290
     0
370
    -3
390
F
  0
LAYER
  5
75
330
2
100
AcDbSymbolTableRecord
100
AcDbLayerTableRecord
  2
SAYFA_CERCEVESI
 70
     0
 62
     7
  6
Continuous
370
    25
390
F
  0
LAYER
  5
76
330
2
100
AcDbSymbolTableRecord
100
AcDbLayerTableRecord
  2
ANTET
 70
     0
 62
     7
  6
Continuous
370
    -3
390
F
  0
LAYER
  5
77
330
2
100
AcDbSymbolTableRecord
100
AcDbLayerTableRecord
  2
OLCU
 70
     0
 62
   150
  6
Continuous
370
    -3
390
F
  0
LAYER
  5
78
330
2
100
AcDbSymbolTableRecord
100
AcDbLayerTableRecord
  2
METIN
 70
     0
 62
    96
  6
Continuous
370
    -3
390
F
  0
LAYER
  5
79
330
2
100
AcDbSymbolTableRecord
100
AcDbLayerTableRecord
  2
BALON
 70
     0
 62
     5
  6
Continuous
370
    -3
390
F
  0
LAYER
  5
7A
330
2
100
AcDbSymbolTableRecord
100
AcDbLayerTableRecord
  2
VURGU
 70
     0
 62
     7
  6
Continuous
370
    -3
390
F
  0
LAYER
  5
7B
330
2
100
AcDbSymbolTableRecord
100
AcDbLayerTableRecord
  2
SILIK
 70
     0
 62
     7
  6
Continuous
370
    -3
390
F
  0
LAYER
  5
7C
330
2
100
AcDbSymbolTableRecord
100
AcDbLayerTableRecord
  2
MODEL
 70
     0
 62
     7
  6
Continuous
370
    -3
390
F
  0
LAYER
  5
7D
330
2
100
AcDbSymbolTableRecord
100
AcDbLayerTableRecord
  2
DETAYLANDıRMA
 70
     0
 62
   190
  6
Continuous
370
    -3
390
F
  0
LAYER
  5
7E
330
2
100
AcDbSymbolTableRecord
100
AcDbLayerTableRecord
  2
TOLERANS
 70
     0
 62
   230
  6
Continuous
370
    -3
390
F
  0
LAYER
  5
7F
330
2
100
AcDbSymbolTableRecord
100
AcDbLayerTableRecord
  2
MERKEZ_CIZGILERI
 70
     0
 62
    30
  6
Continuous
370
    -3
390
F
  0
LAYER
  5
80
330
2
100
AcDbSymbolTableRecord
100
AcDbLayerTableRecord
  2
KESIT-DETAY_CIZGILERI
 70
     0
 62
     7
  6
Continuous
370
    -3
390
F
  0
LAYER
  5
81
330
2
100
AcDbSymbolTableRecord
100
AcDbLayerTableRecord
  2
\U+041E\U+0421\U+0415\U+0412\U+042B\U+0415
 70
     0
 62
     7
  6
Continuous
370
    -3
390
F
  0
LAYER
  5
82
330
2
100
AcDbSymbolTableRecord
100
AcDbLayerTableRecord
  2
\U+0412\U+041E\U+0414\U+042F\U+041D\U+042B\U+0415_\U+0417\U+041D\U+0410\U+041A\U+0418
 70
     0
 62
    11
  6
Continuous
370
    -3
390
F
  0
ENDTAB
  0
TABLE
  2
STYLE
  5
3
330
0
100
AcDbSymbolTable
 70
     1
  0
STYLE
  5
11
330
3
100
AcDbSymbolTableRecord
100
AcDbTextStyleTableRecord
  2
Standard
 70
     0
 40
0.0
 41
1.0
 50
0.0
 71
     0
 42
3.5
  3
txt
  4

  0
ENDTAB
  0
TABLE
  2
VIEW
  5
6
330
0
100
AcDbSymbolTable
 70
     0
  0
ENDTAB
  0
TABLE
  2
UCS
  5
7
330
0
100
AcDbSymbolTable
 70
     0
  0
ENDTAB
  0
TABLE
  2
APPID
  5
9
330
0
100
AcDbSymbolTable
 70
     1
  0
APPID
  5
12
330
9
100
AcDbSymbolTableRecord
100
AcDbRegAppTableRecord
  2
ACAD
 70
     0
  0
ENDTAB
  0
TABLE
  2
DIMSTYLE
  5
A
330
0
100
AcDbSymbolTable
 70
     1
100
AcDbDimStyleTable
  0
DIMSTYLE
105
27
330
A
100
AcDbSymbolTableRecord
100
AcDbDimStyleTableRecord
  2
ISO-25
 70
     0
 41
2.5
 42
0.625
 43
3.75
 44
1.25
 73
     0
 74
     0
 77
     1
 78
     8
140
2.5
141
2.5
143
0.0393700787
147
0.625
171
     3
172
     1
178
     0
271
     2
272
     2
274
     3
278
    44
283
     0
284
     8
340
11
  0
ENDTAB
  0
TABLE
  2
BLOCK_RECORD
  5
1
330
0
100
AcDbSymbolTable
 70
     3
  0
BLOCK_RECORD
  5
1F
330
1
100
AcDbSymbolTableRecord
100
AcDbBlockTableRecord
  2
*Model_Space
340
22
  0
BLOCK_RECORD
  5
1B
330
1
100
AcDbSymbolTableRecord
100
AcDbBlockTableRecord
  2
*Paper_Space
340
1E
  0
BLOCK_RECORD
  5
23
330
1
100
AcDbSymbolTableRecord
100
AcDbBlockTableRecord
  2
*Paper_Space0
340
26
  0
BLOCK_RECORD
  5
88
330
1
100
AcDbSymbolTableRecord
100
AcDbBlockTableRecord
  2
SW_CENTERMARKSYMBOL_0
340
0
102
{BLKREFS
331
93
102
}
  0
BLOCK_RECORD
  5
B2
330
1
100
AcDbSymbolTableRecord
100
AcDbBlockTableRecord
  2
SW_CENTERMARKSYMBOL_1
340
0
102
{BLKREFS
331
BD
102
}
  0
ENDTAB
  0
ENDSEC
  0
SECTION
  2
BLOCKS
  0
BLOCK
  5
20
330
1F
100
AcDbEntity
  8
0
100
AcDbBlockBegin
  2
*Model_Space
 70
     0
 10
0.0
 20
0.0
 30
0.0
  3
*Model_Space
  1

  0
ENDBLK
  5
21
330
1F
100
AcDbEntity
  8
0
100
AcDbBlockEnd
  0
BLOCK
  5
1C
330
1B
100
AcDbEntity
 67
     1
  8
0
100
AcDbBlockBegin
  2
*Paper_Space
 70
     0
 10
0.0
 20
0.0
 30
0.0
  3
*Paper_Space
  1

  0
ENDBLK
  5
1D
330
1B
100
AcDbEntity
 67
     1
  8
0
100
AcDbBlockEnd
  0
BLOCK
  5
24
330
23
100
AcDbEntity
  8
0
100
AcDbBlockBegin
  2
*Paper_Space0
 70
     0
 10
0.0
 20
0.0
 30
0.0
  3
*Paper_Space0
  1

  0
ENDBLK
  5
25
330
23
100
AcDbEntity
  8
0
100
AcDbBlockEnd
  0
BLOCK
  5
89
330
88
100
AcDbEntity
  8
0
100
AcDbBlockBegin
  2
SW_CENTERMARKSYMBOL_0
 70
     0
 10
0.0
 20
0.0
 30
0.0
  3
SW_CENTERMARKSYMBOL_0
  1

  0
LINE
  5
8B
330
88
100
AcDbEntity
  8
FORMAT
 62
     0
100
AcDbLine
 10
0.0
 20
0.0
 30
0.0
 11
0.0
 21
2.5
 31
0.0
  0
LINE
  5
8C
330
88
100
AcDbEntity
  8
FORMAT
 62
     0
100
AcDbLine
 10
0.0
 20
0.0
 30
0.0
 11
-2.5
 21
0.0
 31
0.0
  0
LINE
  5
8D
330
88
100
AcDbEntity
  8
FORMAT
 62
     0
100
AcDbLine
 10
0.0
 20
0.0
 30
0.0
 11
0.0
 21
-2.5
 31
0.0
  0
LINE
  5
8E
330
88
100
AcDbEntity
  8
FORMAT
 62
     0
100
AcDbLine
 10
0.0
 20
0.0
 30
0.0
 11
2.5
 21
0.0
 31
0.0
  0
LINE
  5
8F
330
88
100
AcDbEntity
  8
FORMAT
 62
     0
100
AcDbLine
 10
0.0
 20
5.0
 30
0.0
 11
0.0
 21
82.5
 31
0.0
  0
LINE
  5
90
330
88
100
AcDbEntity
  8
FORMAT
 62
     0
100
AcDbLine
 10
-5.0
 20
0.0
 30
0.0
 11
-82.5
 21
0.0
 31
0.0
  0
LINE
  5
91
330
88
100
AcDbEntity
  8
FORMAT
 62
     0
100
AcDbLine
 10
0.0
 20
-5.0
 30
0.0
 11
0.0
 21
-82.5
 31
0.0
  0
LINE
  5
92
330
88
100
AcDbEntity
  8
FORMAT
 62
     0
100
AcDbLine
 10
5.0
 20
0.0
 30
0.0
 11
82.5
 21
0.0
 31
0.0
  0
ENDBLK
  5
8A
330
88
100
AcDbEntity
  8
0
100
AcDbBlockEnd
  0
BLOCK
  5
B3
330
B2
100
AcDbEntity
  8
0
100
AcDbBlockBegin
  2
SW_CENTERMARKSYMBOL_1
 70
     0
 10
0.0
 20
0.0
 30
0.0
  3
SW_CENTERMARKSYMBOL_1
  1

  0
LINE
  5
B5
330
B2
100
AcDbEntity
  8
FORMAT
 62
     0
100
AcDbLine
 10
0.0
 20
0.0
 30
0.0
 11
0.0
 21
2.5
 31
0.0
  0
LINE
  5
B6
330
B2
100
AcDbEntity
  8
FORMAT
 62
     0
100
AcDbLine
 10
0.0
 20
0.0
 30
0.0
 11
-2.5
 21
0.0
 31
0.0
  0
LINE
  5
B7
330
B2
100
AcDbEntity
  8
FORMAT
 62
     0
100
AcDbLine
 10
0.0
 20
0.0
 30
0.0
 11
0.0
 21
-2.5
 31
0.0
  0
LINE
  5
B8
330
B2
100
AcDbEntity
  8
FORMAT
 62
     0
100
AcDbLine
 10
0.0
 20
0.0
 30
0.0
 11
2.5
 21
0.0
 31
0.0
  0
LINE
  5
B9
330
B2
100
AcDbEntity
  8
FORMAT
 62
     0
100
AcDbLine
 10
0.0
 20
5.0
 30
0.0
 11
0.0
 21
65.0
 31
0.0
  0
LINE
  5
BA
330
B2
100
AcDbEntity
  8
FORMAT
 62
     0
100
AcDbLine
 10
-5.0
 20
0.0
 30
0.0
 11
-65.0
 21
0.0
 31
0.0
  0
LINE
  5
BB
330
B2
100
AcDbEntity
  8
FORMAT
 62
     0
100
AcDbLine
 10
0.0
 20
-5.0
 30
0.0
 11
0.0
 21
-65.0
 31
0.0
  0
LINE
  5
BC
330
B2
100
AcDbEntity
  8
FORMAT
 62
     0
100
AcDbLine
 10
5.0
 20
0.0
 30
0.0
 11
65.0
 21
0.0
 31
0.0
  0
ENDBLK
  5
B4
330
B2
100
AcDbEntity
  8
0
100
AcDbBlockEnd
  0
ENDSEC
  0
SECTION
  2
ENTITIES
  0
LINE
  5
83
330
1F
100
AcDbEntity
  8
0
  6
Continuous
 62
     7
370
    25
100
AcDbLine
 10
127.6734696111
 20
44.9587565666
 30
0.0
 11
277.7060228445
 21
44.9587565666
 31
0.0
  0
LINE
  5
84
330
1F
100
AcDbEntity
  8
0
  6
Continuous
 62
     7
370
    25
100
AcDbLine
 10
277.7060228445
 20
169.9587565666
 30
0.0
 11
127.7723531173
 21
169.9587565666
 31
0.0
  0
CIRCLE
  5
85
330
1F
100
AcDbEntity
  8
0
  6
Continuous
 62
     7
370
    25
100
AcDbCircle
 10
77.7060228445
 20
107.4587565666
 30
0.0
 40
65.39999999999999
  0
CIRCLE
  5
86
330
1F
100
AcDbEntity
  8
0
  6
Continuous
 62
     7
370
    25
100
AcDbCircle
 10
77.7060228445
 20
107.4587565666
 30
0.0
 40
79.99999999999999
  0
LINE
  5
87
330
1F
100
AcDbEntity
  8
0
  6
Continuous
 62
     7
370
    25
100
AcDbLine
 10
277.7060228445
 20
169.9587565666
 30
0.0
 11
277.7060228445
 21
44.9587565666
 31
0.0
  0
INSERT
  5
93
330
1F
100
AcDbEntity
  8
FORMAT
100
AcDbBlockReference
  2
SW_CENTERMARKSYMBOL_0
 10
77.7060228445
 20
107.4587565666
 30
0.0
  0
LINE
  5
94
330
1F
100
AcDbEntity
  8
0
  6
Continuous
 62
     7
370
    25
100
AcDbLine
 10
-2.2939771555
 20
-73.6380217888
 30
0.0
 11
-2.2939771555
 21
-490.6380217888
 31
0.0
  0
LINE
  5
95
330
1F
100
AcDbEntity
  8
0
  6
Continuous
 62
     7
370
    25
100
AcDbLine
 10
157.7060228445
 20
-219.6522423302
 30
0.0
 11
157.7060228445
 21
-73.6380217888
 31
0.0
  0
LINE
  5
96
330
1F
100
AcDbEntity
  8
0
  6
Continuous
 62
     7
370
    25
100
AcDbLine
 10
157.7060228445
 20
-490.6380217888
 30
0.0
 11
157.7060228445
 21
-344.6380217888
 31
0.0
  0
LINE
  5
97
330
1F
100
AcDbEntity
  8
0
  6
Continuous
 62
     7
370
    25
100
AcDbLine
 10
157.7060228445
 20
-344.6380217888
 30
0.0
 11
277.7060228445
 21
-344.6380217888
 31
0.0
  0
LINE
  5
98
330
1F
100
AcDbEntity
  8
0
  6
Continuous
 62
     7
370
    25
100
AcDbLine
 10
277.7060228445
 20
-219.6380217888
 30
0.0
 11
157.6949145061
 21
-219.6380217888
 31
0.0
  0
SPLINE
  5
99
330
1F
100
AcDbEntity
  8
0
  6
Continuous
 62
     7
370
    25
100
AcDbSpline
210
0.0
220
0.0
230
1.0
 70
     8
 71
     3
 72
    43
 73
    39
 74
     0
 42
0.000000001
 43
0.00000001
 40
0.0
 40
0.0
 40
0.0
 40
0.0
 40
0.0021747985192947
 40
0.0240520895006174
 40
0.0459301601398808
 40
0.0857105038616195
 40
0.1264900026518454
 40
0.1695930578667935
 40
0.2135824470163714
 40
0.2393765923814169
 40
0.2651724096865153
 40
0.2915045344044588
 40
0.3178363940428675
 40
0.3422554169440311
 40
0.366671691808596
 40
0.3916772093012474
 40
0.416674781463691
 40
0.4507225952687548
 40
0.4856427047289567
 40
0.5197403422112247
 40
0.5549678220957898
 40
0.5761393194074512
 40
0.5973167574630209
 40
0.6190769209231444
 40
0.6408409172198026
 40
0.6708045171911583
 40
0.7007725109921489
 40
0.7315930873396242
 40
0.762412241495855
 40
0.7925763364790952
 40
0.8227356040728471
 40
0.8540371737922943
 40
0.8853302410339257
 40
0.9061097878539931
 40
0.9268876024577424
 40
0.9482401910369801
 40
0.9695913947815776
 40
0.9999999999999999
 40
0.9999999999999999
 40
0.9999999999999999
 40
0.9999999999999999
 10
157.69491112089
 20
-219.6522423301781
 30
0.0
 10
157.6985322122962
 20
-219.6476085095632
 30
0.0
 10
157.7385795149862
 20
-219.5963609722987
 30
0.0
 10
157.5768728498065
 20
-219.8031236919831
 30
0.0
 10
157.083151738447
 20
-220.4366080931245
 30
0.0
 10
155.895930210033
 20
-221.9665848161642
 30
0.0
 10
153.7330700992126
 20
-224.7975122438394
 30
0.0
 10
150.8376890936339
 20
-228.6826898221464
 30
0.0
 10
147.8402435378822
 20
-232.8616661547176
 30
0.0
 10
145.1127499009379
 20
-236.8390070287932
 30
0.0
 10
142.8134191194767
 20
-240.3318512667862
 30
0.0
 10
140.4605660585446
 20
-244.0899172221602
 30
0.0
 10
138.1586981498055
 20
-248.0152641536438
 30
0.0
 10
135.9682098086609
 20
-252.0584034170406
 30
0.0
 10
133.9186505507021
 20
-256.2358828499666
 30
0.0
 10
132.0136150401094
 20
-260.6570524301046
 30
0.0
 10
130.130043357824
 20
-265.8892517748878
 30
0.0
 10
128.5011860306353
 20
-272.0448359662249
 30
0.0
 10
127.5641361647442
 20
-279.0979462942379
 30
0.0
 10
127.6479891542094
 20
-286.3350445887996
 30
0.0
 10
128.6063387340082
 20
-292.4963456443343
 30
0.0
 10
129.9264611867271
 20
-297.5734214264004
 30
0.0
 10
131.2691961875226
 20
-301.629015508037
 30
0.0
 10
132.8281043063619
 20
-305.5655154658901
 30
0.0
 10
134.7742448610634
 20
-309.8529031244337
 30
0.0
 10
137.1000505818033
 20
-314.3793322537308
 30
0.0
 10
139.7970215636653
 20
-319.0973338914453
 30
0.0
 10
142.5474687031806
 20
-323.5439414220391
 30
0.0
 10
145.2624029583656
 20
-327.6667844943329
 30
0.0
 10
147.8463393477554
 20
-331.4136042117342
 30
0.0
 10
150.2749845995899
 20
-334.8077203677801
 30
0.0
 10
152.4909500808945
 20
-337.817920868846
 30
0.0
 10
154.2055153346852
 20
-340.0941385443789
 30
0.0
 10
155.4534900521426
 20
-341.729584936346
 30
0.0
 10
156.3455514047077
 20
-342.8879734340118
 30
0.0
 10
157.028927556477
 20
-343.7697034162876
 30
0.0
 10
157.5797142748702
 20
-344.4764791059493
 30
0.0
 10
157.6592790017942
 20
-344.5782386261737
 30
0.0
 10
157.7060228445328
 20
-344.6380217888189
 30
0.0
  0
LINE
  5
9A
330
1F
100
AcDbEntity
  8
0
  6
Continuous
 62
     7
370
    25
100
AcDbLine
 10
157.7060228445
 20
-490.6380217888
 30
0.0
 11
-2.2939771555
 21
-490.6380217888
 31
0.0
  0
LINE
  5
9B
330
1F
100
AcDbEntity
  8
0
  6
Continuous
 62
     7
370
    25
100
AcDbLine
 10
157.7060228445
 20
-73.6380217888
 30
0.0
 11
-2.2939771555
 21
-73.6380217888
 31
0.0
  0
LINE
  5
9C
330
1F
100
AcDbEntity
  8
0
  6
Continuous
 62
     7
370
    25
100
AcDbLine
 10
277.7060228445
 20
-219.6380217888
 30
0.0
 11
277.7060228445
 21
-344.6380217888
 31
0.0
  0
LINE
  5
9D
330
1F
100
AcDbEntity
  8
0
  6
Continuous
 62
     7
370
    25
100
AcDbLine
 10
157.7060228445
 20
582.1549205835
 30
0.0
 11
157.7060228445
 21
728.1549205835
 31
0.0
  0
LINE
  5
9E
330
1F
100
AcDbEntity
  8
0
  6
Continuous
 62
     7
370
    25
100
AcDbLine
 10
157.7060228445
 20
311.1549205835
 30
0.0
 11
157.7060228445
 21
457.1691610719
 31
0.0
  0
LINE
  5
9F
330
1F
100
AcDbEntity
  8
0
  6
Continuous
 62
     7
370
    25
100
AcDbLine
 10
-2.2939771555
 20
728.1549205835
 30
0.0
 11
-2.2939771555
 21
311.1549205835
 31
0.0
  0
LINE
  5
A0
330
1F
100
AcDbEntity
  8
0
  6
Continuous
 62
     7
370
    25
100
AcDbLine
 10
157.6949047679
 20
457.1549205835
 30
0.0
 11
277.7060228445
 21
457.1549205835
 31
0.0
  0
LINE
  5
A1
330
1F
100
AcDbEntity
  8
0
  6
Continuous
 62
     7
370
    25
100
AcDbLine
 10
277.7060228445
 20
582.1549205835
 30
0.0
 11
157.7060228445
 21
582.1549205835
 31
0.0
  0
SPLINE
  5
A2
330
1F
100
AcDbEntity
  8
0
  6
Continuous
 62
     7
370
    25
100
AcDbSpline
210
0.0
220
0.0
230
1.0
 70
     8
 71
     3
 72
    46
 73
    42
 74
     0
 42
0.000000001
 43
0.00000001
 40
0.0
 40
0.0
 40
0.0
 40
0.0
 40
0.021450554777965
 40
0.0430764062662774
 40
0.0652419761260969
 40
0.087585613767423
 40
0.1090321656182141
 40
0.1306164451764258
 40
0.1525978115372126
 40
0.1747011348034735
 40
0.2033276882782921
 40
0.2321702895680378
 40
0.2616336657203797
 40
0.2912913401904526
 40
0.3203049386637527
 40
0.3495052982298843
 40
0.379365758164239
 40
0.4095136577995584
 40
0.4439089431837191
 40
0.479148137849111
 40
0.5136001887671048
 40
0.531362285338045
 40
0.549271350402707
 40
0.5697276571538198
 40
0.5903495415992409
 40
0.6114046727727579
 40
0.6325772514512262
 40
0.6619836909749188
 40
0.6916081534372386
 40
0.7218553246909982
 40
0.7523064318929129
 40
0.7821101104721014
 40
0.8121356259371256
 40
0.8429460222918659
 40
0.8740750923919267
 40
0.8951585434006136
 40
0.9163712454267239
 40
0.9380197183506479
 40
0.9598320794361448
 40
0.980920430207386
 40
1.0
 40
1.0
 40
1.0
 40
1.0
 10
157.7060228445328
 20
582.1549205835188
 30
0.0
 10
157.6821892230819
 20
582.1244285506056
 30
0.0
 10
157.6343272087407
 20
582.0631952999391
 30
0.0
 10
157.2456106317965
 20
581.564933566739
 30
0.0
 10
156.622146833874
 20
580.7624281258951
 30
0.0
 10
155.7587847064795
 20
579.6440857717892
 30
0.0
 10
154.6920926915553
 20
578.2503275188155
 30
0.0
 10
153.4433729074052
 20
576.600984829924
 30
0.0
 10
152.0122369633861
 20
574.6848502936698
 30
0.0
 10
150.2633265617335
 20
572.3035753181489
 30
0.0
 10
148.1750560796375
 20
569.3939700632775
 30
0.0
 10
145.7316368327086
 20
565.8737620994139
 30
0.0
 10
143.1477471699118
 20
561.987793099695
 30
0.0
 10
140.5046138922636
 20
557.7846947372348
 30
0.0
 10
137.8793697554181
 20
553.2988222244295
 30
0.0
 10
135.3286309303172
 20
548.5120562986332
 30
0.0
 10
132.9152090383069
 20
543.3626875394802
 30
0.0
 10
130.6634920406252
 20
537.5882064659346
 30
0.0
 10
128.7939988209819
 20
531.1231874239242
 30
0.0
 10
127.6628817529522
 20
524.046198076385
 30
0.0
 10
127.5710577117221
 20
517.9708845566171
 30
0.0
 10
128.0211625570278
 20
513.1570790277796
 30
0.0
 10
128.6466257370477
 20
509.3606757266497
 30
0.0
 10
129.572945205158
 20
505.4638852063505
 30
0.0
 10
130.8024928364848
 20
501.4881465933991
 30
0.0
 10
132.2549397305755
 20
497.6112101867293
 30
0.0
 10
134.0948846486403
 20
493.3654667129921
 30
0.0
 10
136.3359665504784
 20
488.8432020024343
 30
0.0
 10
138.9640748295455
 20
484.1093524912828
 30
0.0
 10
141.675971161721
 20
479.6268821821101
 30
0.0
 10
144.3728996311208
 20
475.4542912259777
 30
0.0
 10
146.9770462651693
 20
471.6236510991728
 30
0.0
 10
149.444897079916
 20
468.1331719386215
 30
0.0
 10
151.7352360033651
 20
464.99337842336
 30
0.0
 10
153.5478152352887
 20
462.5687248408967
 30
0.0
 10
154.9160730091816
 20
460.7658194271575
 30
0.0
 10
155.9221433229431
 20
459.4535863766601
 30
0.0
 10
156.7323424466785
 20
458.4053084353446
 30
0.0
 10
157.3064874446712
 20
457.6667863357233
 30
0.0
 10
157.6504258287187
 20
457.2260554730191
 30
0.0
 10
157.6805788314179
 20
457.1874828723782
 30
0.0
 10
157.6949013632139
 20
457.1691610719045
 30
0.0
  0
LINE
  5
A3
330
1F
100
AcDbEntity
  8
0
  6
Continuous
 62
     7
370
    25
100
AcDbLine
 10
-2.2939771555
 20
728.1549205835
 30
0.0
 11
157.7060228445
 21
728.1549205835
 31
0.0
  0
LINE
  5
A4
330
1F
100
AcDbEntity
  8
0
  6
Continuous
 62
     7
370
    25
100
AcDbLine
 10
-2.2939771555
 20
311.1549205835
 30
0.0
 11
157.7060228445
 21
311.1549205835
 31
0.0
  0
LINE
  5
A5
330
1F
100
AcDbEntity
  8
0
  6
Continuous
 62
     7
370
    25
100
AcDbLine
 10
277.7060228445
 20
582.1549205835
 30
0.0
 11
277.7060228445
 21
457.1549205835
 31
0.0
  0
LINE
  5
A6
330
1F
100
AcDbEntity
  8
0
  6
Continuous
 62
     7
370
    25
100
AcDbLine
 10
365.4980500067
 20
27.4587565666
 30
0.0
 11
782.4980500067
 21
27.4587565666
 31
0.0
  0
LINE
  5
A7
330
1F
100
AcDbEntity
  8
0
  6
Continuous
 62
     7
370
    25
100
AcDbLine
 10
782.4980500067
 20
187.4587565666
 30
0.0
 11
365.4980500067
 21
187.4587565666
 31
0.0
  0
LINE
  5
A8
330
1F
100
AcDbEntity
  8
0
  6
Continuous
 62
     7
370
    25
100
AcDbLine
 10
782.4980500067
 20
187.4587565666
 30
0.0
 11
782.4980500067
 21
27.4587565666
 31
0.0
  0
LINE
  5
A9
330
1F
100
AcDbEntity
  8
0
  6
Continuous
 62
     7
370
    25
100
AcDbLine
 10
365.4980500067
 20
187.4587565666
 30
0.0
 11
365.4980500067
 21
27.4587565666
 31
0.0
  0
LINE
  5
AA
330
1F
100
AcDbEntity
  8
0
  6
Continuous
 62
     7
370
    25
100
AcDbLine
 10
-101.2019282646
 20
187.4587565666
 30
0.0
 11
-518.2019282646
 21
187.4587565666
 31
0.0
  0
LINE
  5
AB
330
1F
100
AcDbEntity
  8
0
  6
Continuous
 62
     7
370
    25
100
AcDbLine
 10
-518.2019282646
 20
27.4587565666
 30
0.0
 11
-101.2019282646
 21
27.4587565666
 31
0.0
  0
CIRCLE
  5
AC
330
1F
100
AcDbEntity
  8
0
  6
Continuous
 62
     7
370
    25
100
AcDbCircle
 10
-309.7019282646
 20
107.4587565666
 30
0.0
 40
51.10000000000002
  0
CIRCLE
  5
AD
330
1F
100
AcDbEntity
  8
0
  6
Continuous
 62
     7
370
    25
100
AcDbCircle
 10
-309.7019282646
 20
107.4587565666
 30
0.0
 40
62.50000000000003
  0
LINE
  5
AE
330
1F
100
AcDbEntity
  8
0
  6
Continuous
 62
     7
370
    25
100
AcDbLine
 10
-518.2019282646
 20
107.4587565666
 30
0.0
 11
-518.2019282646
 21
187.4587565666
 31
0.0
  0
LINE
  5
AF
330
1F
100
AcDbEntity
  8
0
  6
Continuous
 62
     7
370
    25
100
AcDbLine
 10
-518.2019282646
 20
27.4587565666
 30
0.0
 11
-518.2019282646
 21
107.4587565666
 31
0.0
  0
LINE
  5
B0
330
1F
100
AcDbEntity
  8
0
  6
Continuous
 62
     7
370
    25
100
AcDbLine
 10
-101.2019282646
 20
107.4587565666
 30
0.0
 11
-101.2019282646
 21
187.4587565666
 31
0.0
  0
LINE
  5
B1
330
1F
100
AcDbEntity
  8
0
  6
Continuous
 62
     7
370
    25
100
AcDbLine
 10
-101.2019282646
 20
27.4587565666
 30
0.0
 11
-101.2019282646
 21
107.4587565666
 31
0.0
  0
INSERT
  5
BD
330
1F
100
AcDbEntity
  8
FORMAT
100
AcDbBlockReference
  2
SW_CENTERMARKSYMBOL_1
 10
-309.7019282646
 20
107.4587565666
 30
0.0
  0
LINE
  5
BE
330
1F
100
AcDbEntity
  8
0
  6
Continuous
 62
     7
370
    25
100
AcDbLine
 10
636.0268471801
 20
-218.8502992652
 30
0.0
 11
511.0904103137
 21
-146.7260294705
 31
0.0
  0
LINE
  5
BF
330
1F
100
AcDbEntity
  8
0
  6
Continuous
 62
     7
370
    25
100
AcDbLine
 10
805.9539380684
 20
-316.9471207855
 30
0.0
 11
761.0370064262
 21
-291.0171280839
 31
0.0
  0
LINE
  5
C0
330
1F
100
AcDbEntity
  8
0
  6
Continuous
 62
     7
370
    25
100
AcDbLine
 10
431.0969117028
 20
-285.2938474514
 30
0.0
 11
725.9604394576
 21
-455.5149387665
 31
0.0
  0
LINE
  5
C1
330
1F
100
AcDbEntity
  8
0
  6
Continuous
 62
     7
370
    25
100
AcDbLine
 10
696.9243501144
 20
-328.0285767618
 30
0.0
 11
791.1942415178
 21
-273.607726835
 31
0.0
  0
LINE
  5
C2
330
1F
100
AcDbEntity
  8
0
  6
Continuous
 62
     7
370
    25
100
AcDbLine
 10
728.699320728
 20
-165.3516190374
 30
0.0
 11
634.4219169704
 21
-219.776805754
 31
0.0
  0
SPLINE
  5
C3
330
1F
100
AcDbEntity
  8
0
  6
Continuous
 62
     7
370
    25
100
AcDbSpline
210
0.0
220
0.0
230
1.0
 70
     8
 71
     3
 72
    37
 73
    33
 74
     0
 42
0.000000001
 43
0.00000001
 40
0.0
 40
0.0
 40
0.0
 40
0.0
 40
0.0285078265950652
 40
0.0572486228393071
 40
0.086706705787989
 40
0.1164014411444945
 40
0.1449039478420127
 40
0.1735894949149955
 40
0.2028027710760215
 40
0.2321781281878347
 40
0.2702228701966898
 40
0.3085547401473596
 40
0.3477116210276137
 40
0.3871267247280664
 40
0.4256858502489288
 40
0.4644931816042908
 40
0.5041777875582554
 40
0.5442444014013614
 40
0.5899557986854392
 40
0.6367887529502261
 40
0.6711637519144699
 40
0.7061989406425413
 40
0.730000120920992
 40
0.7571865900670132
 40
0.7847880934442607
 40
0.81257540157136
 40
0.8407137974209713
 40
0.8797950094174486
 40
0.9191659742987565
 40
0.9593645203046246
 40
0.9998340975591798
 40
0.9999999999999999
 40
0.9999999999999999
 40
0.9999999999999999
 40
0.9999999999999999
 10
630.8997935563714
 20
-242.951406151117
 30
0.0
 10
630.9045017642683
 20
-244.1835494670064
 30
0.0
 10
630.9139566561465
 20
-246.6579053334597
 30
0.0
 10
630.9914167789822
 20
-250.6701108691393
 30
0.0
 10
631.1180183388033
 20
-254.8919490294058
 30
0.0
 10
631.2983165861926
 20
-259.2421017011401
 30
0.0
 10
631.5295873409663
 20
-263.6470279058086
 30
0.0
 10
631.8128705137881
 20
-268.0877988967093
 30
0.0
 10
632.155816306536
 20
-272.604499203519
 30
0.0
 10
632.6029655877447
 20
-277.6098380237198
 30
0.0
 10
633.1837369614195
 20
-283.0610369958721
 30
0.0
 10
633.9451416197719
 20
-288.9365762458647
 30
0.0
 10
634.8658505398321
 20
-294.7615731120989
 30
0.0
 10
635.9689132112005
 20
-300.439722686536
 30
0.0
 10
637.284573288255
 20
-305.9095388649038
 30
0.0
 10
638.8656940029082
 20
-311.1642292231145
 30
0.0
 10
640.8002592431312
 20
-316.2044975875669
 30
0.0
 10
643.2913934215991
 20
-321.1623978450895
 30
0.0
 10
646.5402179539118
 20
-325.8624740244799
 30
0.0
 10
650.4002477541011
 20
-329.6197140416795
 30
0.0
 10
654.5386806124326
 20
-332.3023595807874
 30
0.0
 10
658.2195511019835
 20
-333.8866956853131
 30
0.0
 10
661.8249085473861
 20
-334.8988760119719
 30
0.0
 10
665.2439539608016
 20
-335.4812466042047
 30
0.0
 10
668.9249775111591
 20
-335.7309225418018
 30
0.0
 10
672.6933291066719
 20
-335.6438727375065
 30
0.0
 10
676.9881358627576
 20
-335.1903031341266
 30
0.0
 10
681.7685517167334
 20
-334.2413994791845
 30
0.0
 10
686.9822244158609
 20
-332.6922007539106
 30
0.0
 10
692.038988034921
 20
-330.6007900160924
 30
0.0
 10
695.380090302702
 20
-329.0183683846565
 30
0.0
 10
696.9175238808996
 20
-328.0317075492717
 30
0.0
 10
696.9238007597536
 20
-328.0276793098593
 30
0.0
  0
SPLINE
  5
C4
330
1F
100
AcDbEntity
  8
0
  6
Continuous
 62
     7
370
    25
100
AcDbSpline
210
0.0
220
0.0
230
1.0
 70
     8
 71
     3
 72
    17
 73
    13
 74
     0
 42
0.000000001
 43
0.00000001
 40
0.0
 40
0.0
 40
0.0
 40
0.0
 40
0.0404728217937985
 40
0.1618072184213582
 40
0.2840956491455442
 40
0.4097956568510149
 40
0.5368925662332488
 40
0.620550928750686
 40
0.705302798241771
 40
0.7906363983434023
 40
0.8771915994705703
 40
1.0
 40
1.0
 40
1.0
 40
1.0
 10
634.4508699140241
 20
-219.8280685523154
 30
0.0
 10
634.3393272561331
 20
-219.8733616636489
 30
0.0
 10
633.8933883171427
 20
-220.0544400276898
 30
0.0
 10
633.2883234480365
 20
-220.8848912591906
 30
0.0
 10
632.5960580170238
 20
-222.3693103800389
 30
0.0
 10
632.0363544212973
 20
-224.4999898911881
 30
0.0
 10
631.6384400837089
 20
-226.9637091216244
 30
0.0
 10
631.3632774987323
 20
-229.5488940376916
 30
0.0
 10
631.1752850281251
 20
-232.054643927029
 30
0.0
 10
631.0349089708819
 20
-234.882421165477
 30
0.0
 10
630.9247499075599
 20
-238.428421549198
 30
0.0
 10
630.9090202508319
 20
-241.2791986775027
 30
0.0
 10
630.8997935563714
 20
-242.951406151117
 30
0.0
  0
LWPOLYLINE
  5
C5
330
1F
100
AcDbEntity
  8
0
  6
Continuous
 62
     7
370
    25
100
AcDbPolyline
 90
       95
 70
   128
 43
0.0
 10
527.6622035031
 20
-183.3536139881
 10
527.5358790816
 20
-179.0634266134
 10
527.1574700127
 20
-174.9382513296
 10
526.528666363
 20
-170.9965121708
 10
525.6522765223
 20
-167.255813901
 10
524.5322146605
 20
-163.7328633868
 10
523.1734832456
 20
-160.4433949802
 10
521.5821507021
 20
-157.4021002459
 10
519.7653243073
 20
-154.6225623442
 10
517.731118449
 20
-152.1171953664
 10
515.4886183843
 20
-149.8971888894
 10
513.047839663
 20
-147.972458001
 10
510.4196833953
 20
-146.3515990168
 10
507.615887565
 20
-145.0418510863
 10
504.6489746051
 20
-144.0490638619
 10
501.5321954689
 20
-143.3776713721
 10
498.2794704488
 20
-143.0306722189
 10
494.9053270042
 20
-143.0096161848
 10
491.424834879
 20
-143.314597311
 10
487.8535387957
 20
-143.9442534779
 10
484.2073890298
 20
-144.8957724881
 10
480.5026701711
 20
-146.1649046268
 10
476.7559283934
 20
-147.7459816417
 10
472.983897555
 20
-149.6319420591
 10
469.2034244614
 20
-151.8143627219
 10
465.431393623
 20
-154.2834964097
 10
461.6846518453
 20
-157.0283153721
 10
457.9799329866
 20
-160.0365605811
 10
454.3337832207
 20
-163.2947964835
 10
450.7624871374
 20
-166.7884710068
 10
447.2819950122
 20
-170.5019805524
 10
443.9078515676
 20
-174.4187396852
 10
440.6551265475
 20
-178.5212552082
 10
437.5383474114
 20
-182.7912042912
 10
434.5714344514
 20
-187.2095163049
 10
431.7676386211
 20
-191.7564579953
 10
429.1394823534
 20
-196.4117216171
 10
426.6987036321
 20
-201.154515633
 10
424.4562035674
 20
-205.9636575733
 10
422.4219977091
 20
-210.8176686429
 10
420.6051713144
 20
-215.6948696499
 10
419.0138387708
 20
-220.5734778307
 10
417.6551073559
 20
-225.4317041369
 10
416.5350454941
 20
-230.2478505504
 10
415.6586556535
 20
-235.0004069922
 10
415.0298520038
 20
-239.6681473916
 10
414.6514429348
 20
-244.2302244867
 10
414.5251185133
 20
-248.6662629339
 10
414.6514429348
 20
-252.9564503085
 10
415.0298520038
 20
-257.0816255923
 10
415.6586556535
 20
-261.0233647511
 10
416.5350454941
 20
-264.7640630209
 10
417.6551073559
 20
-268.2870135352
 10
419.0138387708
 20
-271.5764819417
 10
420.6051713144
 20
-274.6177766761
 10
422.4219977091
 20
-277.3973145777
 10
424.4562035674
 20
-279.9026815556
 10
426.6987036321
 20
-282.1226880326
 10
429.1394823534
 20
-284.0474189209
 10
431.7676386211
 20
-285.6682779051
 10
434.5714344514
 20
-286.9780258356
 10
437.5383474114
 20
-287.9708130601
 10
440.6551265475
 20
-288.6422055498
 10
443.9078515676
 20
-288.989204703
 10
447.2819950122
 20
-289.0102607371
 10
450.7624871374
 20
-288.7052796109
 10
454.3337832207
 20
-288.075623444
 10
457.9799329866
 20
-287.1241044338
 10
461.6846518453
 20
-285.8549722952
 10
465.431393623
 20
-284.2738952802
 10
469.2034244614
 20
-282.3879348628
 10
472.983897555
 20
-280.2055142
 10
476.7559283934
 20
-277.7363805122
 10
480.5026701711
 20
-274.9915615499
 10
484.2073890298
 20
-271.9833163408
 10
487.8535387957
 20
-268.7250804384
 10
491.424834879
 20
-265.2314059152
 10
494.9053270042
 20
-261.5178963696
 10
498.2794704488
 20
-257.6011372367
 10
501.5321954689
 20
-253.4986217137
 10
504.6489746051
 20
-249.2286726308
 10
507.615887565
 20
-244.8103606171
 10
510.4196833953
 20
-240.2634189266
 10
513.047839663
 20
-235.6081553048
 10
515.4886183843
 20
-230.865361289
 10
517.731118449
 20
-226.0562193486
 10
519.7653243073
 20
-221.202208279
 10
521.5821507021
 20
-216.325007272
 10
523.1734832456
 20
-211.4463990912
 10
524.5322146605
 20
-206.588172785
 10
525.6522765223
 20
-201.7720263715
 10
526.528666363
 20
-197.0194699297
 10
527.1574700127
 20
-192.3517295304
 10
527.5358790816
 20
-187.7896524352
 10
527.6622035031
 20
-183.3536139881
  0
LWPOLYLINE
  5
C6
330
1F
100
AcDbEntity
  8
0
  6
Continuous
 62
     7
370
    25
100
AcDbPolyline
 90
       13
 70
   128
 43
0.0
 10
822.5257312579
 20
-353.5747053031
 10
822.3994068364
 20
-349.2845179285
 10
822.0209977674
 20
-345.1593426446
 10
821.3921941178
 20
-341.2176034859
 10
820.5158042771
 20
-337.4769052161
 10
819.3957424153
 20
-333.9539547018
 10
818.0370110004
 20
-330.6644862953
 10
816.4456784569
 20
-327.6231915609
 10
814.6288520621
 20
-324.8436536593
 10
812.5946462038
 20
-322.3382866814
 10
810.3521461391
 20
-320.1182802044
 10
807.9113674178
 20
-318.1935493161
 10
805.9539380684
 20
-316.9471207855
  0
LWPOLYLINE
  5
C7
330
1F
100
AcDbEntity
  8
0
  6
Continuous
 62
     7
370
    25
100
AcDbPolyline
 90
       37
 70
   128
 43
0.0
 10
725.9604394576
 20
-455.5149387665
 10
726.6311663759
 20
-455.8893692202
 10
729.4349622062
 20
-457.1991171506
 10
732.4018751662
 20
-458.1919043751
 10
735.5186543023
 20
-458.8632968648
 10
738.7713793224
 20
-459.210296018
 10
742.145522767
 20
-459.2313520522
 10
745.6260148922
 20
-458.9263709259
 10
749.1973109755
 20
-458.2967147591
 10
752.8434607414
 20
-457.3451957489
 10
756.5481796001
 20
-456.0760636102
 10
760.2949213778
 20
-454.4949865953
 10
764.0669522162
 20
-452.6090261779
 10
767.8474253098
 20
-450.426605515
 10
771.6194561482
 20
-447.9574718272
 10
775.3661979259
 20
-445.2126528649
 10
779.0709167846
 20
-442.2044076559
 10
782.7170665505
 20
-438.9461717535
 10
786.2883626338
 20
-435.4524972302
 10
789.768854759
 20
-431.7389876846
 10
793.1429982036
 20
-427.8222285517
 10
796.3957232237
 20
-423.7197130287
 10
799.5125023599
 20
-419.4497639458
 10
802.4794153198
 20
-415.0314519321
 10
805.2832111501
 20
-410.4845102417
 10
807.9113674178
 20
-405.8292466198
 10
810.3521461391
 20
-401.086452604
 10
812.5946462038
 20
-396.2773106637
 10
814.6288520621
 20
-391.4232995941
 10
816.4456784569
 20
-386.5460985871
 10
818.0370110004
 20
-381.6674904062
 10
819.3957424153
 20
-376.8092641
 10
820.5158042771
 20
-371.9931176865
 10
821.3921941178
 20
-367.2405612447
 10
822.0209977674
 20
-362.5728208454
 10
822.3994068364
 20
-358.0107437503
 10
822.5257312579
 20
-353.5747053031
  0
LWPOLYLINE
  5
C8
330
1F
100
AcDbEntity
  8
0
  6
Continuous
 62
     7
370
    25
100
AcDbPolyline
 90
       86
 70
   128
 43
0.0
 10
517.3384444978
 20
-189.3133932044
 10
517.2121580123
 20
-185.4424412212
 10
516.8339882887
 20
-181.738438308
 10
516.206000759
 20
-178.2216144443
 10
515.3316252732
 20
-174.9111773024
 10
514.2156373671
 20
-171.8252073421
 10
512.8641321796
 20
-168.9805590611
 10
511.2844911633
 20
-166.392768942
 10
509.4853417698
 20
-164.075970597
 10
507.4765103291
 20
-162.0428175752
 10
505.268968382
 20
-160.3044142535
 10
502.874772757
 20
-158.8702551878
 10
500.3069997204
 20
-157.7481732578
 10
497.5796735581
 20
-156.9442968858
 10
494.7076899799
 20
-156.4630165658
 10
491.7067347641
 20
-156.306960884
 10
488.5931980875
 20
-156.4769821625
 10
485.3840850077
 20
-156.9721518039
 10
482.0969225875
 20
-157.7897653634
 10
478.7496641682
 20
-158.9253573192
 10
475.3605913145
 20
-160.372725462
 10
471.9482139672
 20
-162.1239647687
 10
468.5311693479
 20
-164.1695105776
 10
465.1281201694
 20
-166.4981908269
 10
461.7576527064
 20
-169.0972870724
 10
458.4381752832
 20
-171.9526039519
 10
455.1878177345
 20
-175.0485467146
 10
452.0243323861
 20
-178.3682063948
 10
448.9649970979
 20
-181.8934521624
 10
446.0265208983
 20
-185.6050303476
 10
443.2249527255
 20
-189.4826695974
 10
440.5755937733
 20
-193.5051915907
 10
438.0929139215
 20
-197.6506267075
 10
435.7904727065
 20
-201.8963340186
 10
433.6808452639
 20
-206.2191249429
 10
431.7755536472
 20
-210.5953898955
 10
430.0850038986
 20
-215.0012272348
 10
428.6184292144
 20
-219.412573805
 10
427.383839517
 20
-223.8053363608
 10
426.3879777074
 20
-228.1555231566
 10
425.6362828372
 20
-232.4393749805
 10
425.1328604033
 20
-236.6334949194
 10
424.8804599244
 20
-240.7149761446
 10
424.8804599244
 20
-244.661527021
 10
425.1328604033
 20
-248.4515928562
 10
425.6362828372
 20
-252.0644736249
 10
426.3879777074
 20
-255.4804370252
 10
427.383839517
 20
-258.6808262497
 10
428.6184292144
 20
-261.6481618821
 10
430.0850038986
 20
-264.3662373642
 10
431.7755536472
 20
-266.8202075103
 10
433.6808452639
 20
-268.9966695864
 10
435.7904727065
 20
-270.8837365114
 10
438.0929139215
 20
-272.4711017801
 10
440.5755937733
 20
-273.7500957539
 10
443.2249527255
 20
-274.7137330112
 10
446.0265208983
 20
-275.3567504994
 10
448.9649970979
 20
-275.6756362801
 10
452.0243323861
 20
-275.6686487097
 10
455.1878177345
 20
-275.3358259519
 10
458.4381752832
 20
-274.6789857691
 10
461.7576527064
 20
-273.7017155947
 10
465.1281201694
 20
-272.4093529394
 10
468.5311693479
 20
-270.80895624
 10
471.9482139672
 20
-268.9092663081
 10
475.3605913145
 20
-266.7206585916
 10
478.7496641682
 20
-264.2550865068
 10
482.0969225875
 20
-261.5260161534
 10
485.3840850077
 20
-258.5483527673
 10
488.5931980875
 20
-255.3383593134
 10
491.7067347641
 20
-251.9135676627
 10
494.7076899799
 20
-248.2926828397
 10
497.5796735581
 20
-244.4954808617
 10
500.3069997204
 20
-240.5427007291
 10
502.874772757
 20
-236.4559311562
 10
505.268968382
 20
-232.2574926612
 10
507.4765103291
 20
-227.9703156595
 10
509.4853417698
 20
-223.617815225
 10
511.2844911633
 20
-219.2237632058
 10
512.8641321796
 20
-214.8121583903
 10
514.2156373671
 20
-210.4070954342
 10
515.3316252732
 20
-206.0326332638
 10
516.206000759
 20
-201.7126636746
 10
516.8339882887
 20
-197.4707808423
 10
517.2121580123
 20
-193.3301524601
 10
517.3384444978
 20
-189.3133932044
  0
LWPOLYLINE
  5
C9
330
1F
100
AcDbEntity
  8
0
  6
Continuous
 62
     7
370
    25
100
AcDbPolyline
 90
       76
 70
   128
 43
0.0
 10
796.0799376415
 20
-240.3389001933
 10
795.9532135759
 20
-236.7742662292
 10
795.5739302571
 20
-233.0883231194
 10
794.9447480853
 20
-229.3069251063
 10
794.0700803212
 20
-225.4565959801
 10
792.9560621308
 20
-221.5643430332
 10
791.6105075513
 20
-217.6574676233
 10
790.0428546812
 20
-213.7633736745
 10
788.2640994791
 20
-209.9093754579
 10
786.2867186347
 20
-206.1225060018
 10
784.1245820539
 20
-202.4293274747
 10
781.7928555713
 20
-198.8557448703
 10
779.3078945728
 20
-195.426824303
 10
776.6871292744
 20
-192.1666171869
 10
773.9489424616
 20
-189.0979915325
 10
771.1125405476
 20
-186.242471544
 10
768.1978188538
 20
-183.6200866423
 10
765.2252220587
 20
-181.2492309734
 10
762.215600793
 20
-179.1465343863
 10
759.1900653874
 20
-177.3267457869
 10
756.169837799
 20
-175.8026296845
 10
753.1761027543
 20
-174.5848766587
 10
750.2298591537
 20
-173.6820283718
 10
747.351772779
 20
-173.1004176561
 10
744.5620313384
 20
-172.8441240926
 10
741.8802028636
 20
-172.9149453967
 10
739.3250984545
 20
-173.3123848078
 10
736.9146403326
 20
-174.033654574
 10
734.6657361298
 20
-175.073695506
 10
732.5941602932
 20
-176.4252124641
 10
730.7144434389
 20
-178.0787255278
 10
729.0397704301
 20
-180.022636491
 10
727.5818878946
 20
-182.2433102151
 10
726.351021831
 20
-184.7251702693
 10
725.3558058803
 20
-187.4508081887
 10
724.6032207673
 20
-190.4011055816
 10
724.0985453359
 20
-193.5553682316
 10
723.8453195216
 20
-196.8914712524
 10
723.8453195216
 20
-200.3860142785
 10
724.0985453359
 20
-204.0144856013
 10
724.6032207673
 20
-207.7514341015
 10
725.3558058803
 20
-211.5706477704
 10
726.351021831
 20
-215.4453375682
 10
727.5818878946
 20
-219.34832533
 10
729.0397704301
 20
-223.2522344009
 10
730.7144434389
 20
-227.1296816636
 10
732.5941602932
 20
-230.9534696117
 10
734.6657361298
 20
-234.69677712
 10
736.9146403326
 20
-238.3333475759
 10
739.3250984545
 20
-241.8376730506
 10
741.8802028636
 20
-245.1851732186
 10
744.5620313384
 20
-248.3523677716
 10
747.351772779
 20
-251.3170411153
 10
750.2298591537
 20
-254.0583981963
 10
753.1761027543
 20
-256.5572103644
 10
756.169837799
 20
-258.7959502477
 10
759.1900653874
 20
-260.7589146943
 10
762.215600793
 20
-262.432334919
 10
765.2252220587
 20
-263.8044730814
 10
768.1978188538
 20
-264.8657046181
 10
771.1125405476
 20
-265.6085857524
 10
773.9489424616
 20
-266.0279057068
 10
776.6871292744
 20
-266.1207232532
 10
779.3078945728
 20
-265.8863873432
 10
781.7928555713
 20
-265.3265416748
 10
784.1245820539
 20
-264.4451131632
 10
786.2867186347
 20
-263.2482843959
 10
788.2640994791
 20
-261.744450267
 10
790.0428546812
 20
-259.9441590923
 10
791.6105075513
 20
-257.8600386209
 10
792.9560621308
 20
-255.5067074605
 10
794.0700803212
 20
-252.9006725383
 10
794.9447480853
 20
-250.0602133168
 10
795.5739302571
 20
-247.0052535767
 10
795.9532135759
 20
-243.7572216655
 10
796.0799376415
 20
-240.3389001933
  0
LWPOLYLINE
  5
CA
330
1F
100
AcDbEntity
  8
0
  6
Continuous
 62
     7
370
    25
100
AcDbPolyline
 90
       84
 70
   128
 43
0.0
 10
804.1409549471
 20
-244.9924264307
 10
804.0143848343
 20
-241.059736712
 10
803.6353994783
 20
-237.0034383422
 10
803.0061696727
 20
-232.8467654312
 10
802.1302995889
 20
-228.6135270249
 10
801.0128061315
 20
-224.3279707295
 10
799.6600902017
 20
-220.0146438234
 10
798.0799000339
 20
-215.6982526525
 10
796.2812868143
 20
-211.4035211145
 10
794.2745528366
 20
-207.1550490428
 10
792.0711924911
 20
-202.9771713007
 10
789.6838264266
 20
-198.8938183935
 10
787.1261292594
 20
-194.9283793968
 10
784.4127512475
 20
-191.1035679862
 10
781.5592343744
 20
-187.4412923351
 10
778.5819233262
 20
-183.9625296266
 10
775.4978718711
 20
-180.6872058986
 10
772.3247451764
 20
-177.6340819088
 10
769.0807186246
 20
-174.8206456749
 10
765.784373706
 20
-172.2630123049
 10
762.4545915857
 20
-169.975831691
 10
759.1104449542
 20
-167.9722045967
 10
755.7710887805
 20
-166.2636076167
 10
752.4556505943
 20
-164.8598274395
 10
749.1831209255
 20
-163.7689047911
 10
745.9722445275
 20
-162.9970883774
 10
742.8414130097
 20
-162.5487990931
 10
739.8085594913
 20
-162.4266046985
 10
736.8910558827
 20
-162.6312051121
 10
734.1056133804
 20
-163.1614284012
 10
731.4681867468
 20
-164.0142374949
 10
728.9938829227
 20
-165.1847475799
 10
726.6968744965
 20
-166.6662540805
 10
724.5903185243
 20
-168.4502710614
 10
722.6862811681
 20
-170.5265798352
 10
720.9956685813
 20
-172.883287493
 10
719.5281644397
 20
-175.506895027
 10
718.2921744743
 20
-178.3823746506
 10
717.2947783235
 20
-181.4932558771
 10
716.5416889822
 20
-184.8217198605
 10
716.0372200779
 20
-188.3487014605
 10
715.7842611629
 20
-192.0539984459
 10
715.7842611629
 20
-195.9163872112
 10
716.0372200779
 20
-199.9137443432
 10
716.5416889822
 20
-204.0231733423
 10
717.2947783235
 20
-208.2211357714
 10
718.2921744743
 20
-212.4835860817
 10
719.5281644397
 20
-216.7861093441
 10
720.9956685813
 20
-221.1040610947
 10
722.6862811681
 20
-225.4127084971
 10
724.5903185243
 20
-229.687372009
 10
726.6968744965
 20
-233.9035667451
 10
728.9938829227
 20
-238.0371427237
 10
731.4681867468
 20
-242.0644231959
 10
734.1056133804
 20
-245.9623402638
 10
736.8910558827
 20
-249.7085670116
 10
739.8085594913
 20
-253.2816453915
 10
742.8414130097
 20
-256.6611091344
 10
745.9722445275
 20
-259.8276009778
 10
749.1831209255
 20
-262.7629835433
 10
752.4556505944
 20
-265.4504432254
 10
755.7710887805
 20
-267.8745864983
 10
759.1104449542
 20
-270.0215280889
 10
762.4545915857
 20
-271.8789705102
 10
765.784373706
 20
-273.4362745003
 10
769.0807186246
 20
-274.6845199629
 10
772.3247451764
 20
-275.6165570611
 10
775.4978718711
 20
-276.2270471707
 10
778.5819233262
 20
-276.5124934597
 10
781.5592343744
 20
-276.4712609175
 10
784.4127512475
 20
-276.1035857206
 10
787.1261292594
 20
-275.411573879
 10
789.6838264266
 20
-274.399189174
 10
792.0711924911
 20
-273.0722304534
 10
794.2745528366
 20
-271.4382984167
 10
796.2812868143
 20
-269.5067520786
 10
798.0799000339
 20
-267.2886551616
 10
799.6600902017
 20
-264.7967127239
 10
801.0128061315
 20
-262.0451983862
 10
802.1302995889
 20
-259.0498725735
 10
803.0061696727
 20
-255.8278922406
 10
803.6353994783
 20
-252.3977125993
 10
804.0143848343
 20
-248.7789814078
 10
804.1409549471
 20
-244.9924264307
  0
ENDSEC
  0
SECTION
  2
OBJECTS
  0
DICTIONARY
  5
C
330
0
100
AcDbDictionary
281
     1
  3
ACAD_GROUP
350
D
  3
ACAD_LAYOUT
350
1A
  3
ACAD_MLINESTYLE
350
17
  3
ACAD_PLOTSETTINGS
350
19
  3
ACAD_PLOTSTYLENAME
350
E
  3
ACAD_SCALELIST
350
47
  0
DICTIONARY
  5
D
102
{ACAD_REACTORS
330
C
102
}
330
C
100
AcDbDictionary
281
     1
  0
DICTIONARY
  5
1A
102
{ACAD_REACTORS
330
C
102
}
330
C
100
AcDbDictionary
281
     1
  3
Layout1
350
1E
  3
Layout2
350
26
  3
Model
350
22
  0
DICTIONARY
  5
17
102
{ACAD_REACTORS
330
C
102
}
330
C
100
AcDbDictionary
281
     1
  3
Standard
350
18
  0
DICTIONARY
  5
19
102
{ACAD_REACTORS
330
C
102
}
330
C
100
AcDbDictionary
281
     1
  0
ACDBDICTIONARYWDFLT
  5
E
102
{ACAD_REACTORS
330
C
102
}
330
C
100
AcDbDictionary
281
     1
  3
Normal
350
F
100
AcDbDictionaryWithDefault
340
F
  0
DICTIONARY
  5
47
102
{ACAD_REACTORS
330
C
102
}
330
C
100
AcDbDictionary
281
     1
  3
A0
350
48
  3
A1
350
49
  3
A2
350
4A
  3
A3
350
4B
  3
A4
350
4C
  3
A5
350
4D
  3
A6
350
4E
  3
A7
350
4F
  3
A8
350
50
  3
A9
350
51
  3
B0
350
52
  3
B1
350
53
  3
B2
350
54
  3
B3
350
55
  3
B4
350
56
  3
B5
350
57
  3
B6
350
58
  3
B7
350
59
  3
B8
350
5A
  3
B9
350
5B
  3
C0
350
5C
  3
C1
350
5D
  3
C2
350
5E
  3
C3
350
5F
  3
C4
350
60
  3
C5
350
61
  3
C6
350
62
  3
C7
350
63
  3
C8
350
64
  3
C9
350
65
  3
D0
350
66
  3
D1
350
67
  3
D2
350
68
  0
LAYOUT
  5
1E
102
{ACAD_REACTORS
330
1A
102
}
330
1A
100
AcDbPlotSettings
  1

  2
none_device
  4

  6

 40
0.0
 41
0.0
 42
0.0
 43
0.0
 44
0.0
 45
0.0
 46
0.0
 47
0.0
 48
0.0
 49
0.0
140
0.0
141
0.0
142
1.0
143
1.0
 70
   688
 72
     1
 73
     0
 74
     5
  7

 75
    16
147
1.0
148
0.0
149
0.0
100
AcDbLayout
  1
Layout1
 70
     1
 71
     1
 10
0.0
 20
0.0
 11
420.0
 21
297.0
 12
0.0
 22
0.0
 32
0.0
 14
1.0000000000E+20
 24
1.0000000000E+20
 34
1.0000000000E+20
 15
-1.0000000000E+20
 25
-1.0000000000E+20
 35
-1.0000000000E+20
146
0.0
 13
0.0
 23
0.0
 33
0.0
 16
1.0
 26
0.0
 36
0.0
 17
0.0
 27
1.0
 37
0.0
 76
     0
330
1B
  0
LAYOUT
  5
26
102
{ACAD_REACTORS
330
1A
102
}
330
1A
100
AcDbPlotSettings
  1

  2
none_device
  4

  6

 40
0.0
 41
0.0
 42
0.0
 43
0.0
 44
0.0
 45
0.0
 46
0.0
 47
0.0
 48
0.0
 49
0.0
140
0.0
141
0.0
142
1.0
143
1.0
 70
   688
 72
     1
 73
     0
 74
     5
  7

 75
    16
147
1.0
148
0.0
149
0.0
100
AcDbLayout
  1
Layout2
 70
     1
 71
     2
 10
0.0
 20
0.0
 11
0.0
 21
0.0
 12
0.0
 22
0.0
 32
0.0
 14
0.0
 24
0.0
 34
0.0
 15
0.0
 25
0.0
 35
0.0
146
0.0
 13
0.0
 23
0.0
 33
0.0
 16
1.0
 26
0.0
 36
0.0
 17
0.0
 27
1.0
 37
0.0
 76
     0
330
23
  0
LAYOUT
  5
22
102
{ACAD_REACTORS
330
1A
102
}
330
1A
100
AcDbPlotSettings
  1

  2
none_device
  4
Letter_(8.50_x_11.00_Inches)
  6

 40
6.35
 41
6.35
 42
6.35000508
 43
6.35000508
 44
215.9
 45
279.4
 46
0.0
 47
0.0
 48
0.0
 49
0.0
140
0.0
141
0.0
142
1.0
143
1.0
 70
  1712
 72
     1
 73
     0
 74
     0
  7

 75
     0
147
1.0
148
0.0
149
0.0
100
AcDbLayout
  1
Model
 70
     1
 71
     0
 10
0.0
 20
0.0
 11
279.4
 21
215.9
 12
0.0
 22
0.0
 32
0.0
 14
0.0
 24
0.0
 34
0.0
 15
279.4
 25
215.9
 35
0.0
146
0.0
 13
0.0
 23
0.0
 33
0.0
 16
1.0
 26
0.0
 36
0.0
 17
0.0
 27
1.0
 37
0.0
 76
     0
330
1F
331
29
  0
MLINESTYLE
  5
18
102
{ACAD_REACTORS
330
17
102
}
330
17
100
AcDbMlineStyle
  2
Standard
 70
     0
  3

 62
   256
 51
90.0
 52
90.0
 71
     2
 49
0.5
 62
   256
  6
BYLAYER
 49
-0.5
 62
   256
  6
BYLAYER
  0
ACDBPLACEHOLDER
  5
F
102
{ACAD_REACTORS
330
E
102
}
330
E
  0
SCALE
  5
48
102
{ACAD_REACTORS
330
47
102
}
330
47
100
AcDbScale
 70
     0
300
1:1
140
1.0
141
1.0
290
     1
  0
SCALE
  5
49
102
{ACAD_REACTORS
330
47
102
}
330
47
100
AcDbScale
 70
     0
300
1:2
140
1.0
141
2.0
290
     0
  0
SCALE
  5
4A
102
{ACAD_REACTORS
330
47
102
}
330
47
100
AcDbScale
 70
     0
300
1:4
140
1.0
141
4.0
290
     0
  0
SCALE
  5
4B
102
{ACAD_REACTORS
330
47
102
}
330
47
100
AcDbScale
 70
     0
300
1:5
140
1.0
141
5.0
290
     0
  0
SCALE
  5
4C
102
{ACAD_REACTORS
330
47
102
}
330
47
100
AcDbScale
 70
     0
300
1:8
140
1.0
141
8.0
290
     0
  0
SCALE
  5
4D
102
{ACAD_REACTORS
330
47
102
}
330
47
100
AcDbScale
 70
     0
300
1:10
140
1.0
141
10.0
290
     0
  0
SCALE
  5
4E
102
{ACAD_REACTORS
330
47
102
}
330
47
100
AcDbScale
 70
     0
300
1:16
140
1.0
141
16.0
290
     0
  0
SCALE
  5
4F
102
{ACAD_REACTORS
330
47
102
}
330
47
100
AcDbScale
 70
     0
300
1:20
140
1.0
141
20.0
290
     0
  0
SCALE
  5
50
102
{ACAD_REACTORS
330
47
102
}
330
47
100
AcDbScale
 70
     0
300
1:30
140
1.0
141
30.0
290
     0
  0
SCALE
  5
51
102
{ACAD_REACTORS
330
47
102
}
330
47
100
AcDbScale
 70
     0
300
1:40
140
1.0
141
40.0
290
     0
  0
SCALE
  5
52
102
{ACAD_REACTORS
330
47
102
}
330
47
100
AcDbScale
 70
     0
300
1:50
140
1.0
141
50.0
290
     0
  0
SCALE
  5
53
102
{ACAD_REACTORS
330
47
102
}
330
47
100
AcDbScale
 70
     0
300
1:100
140
1.0
141
100.0
290
     0
  0
SCALE
  5
54
102
{ACAD_REACTORS
330
47
102
}
330
47
100
AcDbScale
 70
     0
300
2:1
140
2.0
141
1.0
290
     0
  0
SCALE
  5
55
102
{ACAD_REACTORS
330
47
102
}
330
47
100
AcDbScale
 70
     0
300
4:1
140
4.0
141
1.0
290
     0
  0
SCALE
  5
56
102
{ACAD_REACTORS
330
47
102
}
330
47
100
AcDbScale
 70
     0
300
8:1
140
8.0
141
1.0
290
     0
  0
SCALE
  5
57
102
{ACAD_REACTORS
330
47
102
}
330
47
100
AcDbScale
 70
     0
300
10:1
140
10.0
141
1.0
290
     0
  0
SCALE
  5
58
102
{ACAD_REACTORS
330
47
102
}
330
47
100
AcDbScale
 70
     0
300
100:1
140
100.0
141
1.0
290
     0
  0
SCALE
  5
59
102
{ACAD_REACTORS
330
47
102
}
330
47
100
AcDbScale
 70
     0
300
1/128" = 1'-0"
140
0.0078125
141
12.0
290
     0
  0
SCALE
  5
5A
102
{ACAD_REACTORS
330
47
102
}
330
47
100
AcDbScale
 70
     0
300
1/64" = 1'-0"
140
0.015625
141
12.0
290
     0
  0
SCALE
  5
5B
102
{ACAD_REACTORS
330
47
102
}
330
47
100
AcDbScale
 70
     0
300
1/32" = 1'-0"
140
0.03125
141
12.0
290
     0
  0
SCALE
  5
5C
102
{ACAD_REACTORS
330
47
102
}
330
47
100
AcDbScale
 70
     0
300
1/16" = 1'-0"
140
0.0625
141
12.0
290
     0
  0
SCALE
  5
5D
102
{ACAD_REACTORS
330
47
102
}
330
47
100
AcDbScale
 70
     0
300
3/32" = 1'-0"
140
0.09375
141
12.0
290
     0
  0
SCALE
  5
5E
102
{ACAD_REACTORS
330
47
102
}
330
47
100
AcDbScale
 70
     0
300
1/8" = 1'-0"
140
0.125
141
12.0
290
     0
  0
SCALE
  5
5F
102
{ACAD_REACTORS
330
47
102
}
330
47
100
AcDbScale
 70
     0
300
3/16" = 1'-0"
140
0.1875
141
12.0
290
     0
  0
SCALE
  5
60
102
{ACAD_REACTORS
330
47
102
}
330
47
100
AcDbScale
 70
     0
300
1/4" = 1'-0"
140
0.25
141
12.0
290
     0
  0
SCALE
  5
61
102
{ACAD_REACTORS
330
47
102
}
330
47
100
AcDbScale
 70
     0
300
3/8" = 1'-0"
140
0.375
141
12.0
290
     0
  0
SCALE
  5
62
102
{ACAD_REACTORS
330
47
102
}
330
47
100
AcDbScale
 70
     0
300
1/2" = 1'-0"
140
0.5
141
12.0
290
     0
  0
SCALE
  5
63
102
{ACAD_REACTORS
330
47
102
}
330
47
100
AcDbScale
 70
     0
300
3/4" = 1'-0"
140
0.75
141
12.0
290
     0
  0
SCALE
  5
64
102
{ACAD_REACTORS
330
47
102
}
330
47
100
AcDbScale
 70
     0
300
1" = 1'-0"
140
1.0
141
12.0
290
     0
  0
SCALE
  5
65
102
{ACAD_REACTORS
330
47
102
}
330
47
100
AcDbScale
 70
     0
300
1-1/2" = 1'-0"
140
1.5
141
12.0
290
     0
  0
SCALE
  5
66
102
{ACAD_REACTORS
330
47
102
}
330
47
100
AcDbScale
 70
     0
300
3" = 1'-0"
140
3.0
141
12.0
290
     0
  0
SCALE
  5
67
102
{ACAD_REACTORS
330
47
102
}
330
47
100
AcDbScale
 70
     0
300
6" = 1'-0"
140
6.0
141
12.0
290
     0
  0
SCALE
  5
68
102
{ACAD_REACTORS
330
47
102
}
330
47
100
AcDbScale
 70
     0
300
1'-0" = 1'-0"
140
12.0
141
12.0
290
     0
  0
ENDSEC
  0
EOF
